  0
SECTION
  2
HEADER
  9
$ACADVER
  1
AC1009
  9
$INSBASE
 10
254.8739487342451
 20
63.26624358141885
 30
0.0
  9
$EXTMIN
 10
254.773094524345
 20
63.26624358141885
 30
0.0
  9
$EXTMAX
 10
350.5268795322508
 20
97.32889269221405
 30
0.0
  9
$LIMMIN
 10
0.0
 20
0.0
  9
$LIMMAX
 10
420.0
 20
297.0
  9
$ORTHOMODE
 70
     0
  9
$REGENMODE
 70
     1
  9
$FILLMODE
 70
     1
  9
$QTEXTMODE
 70
     0
  9
$MIRRTEXT
 70
     0
  9
$DRAGMODE
 70
     2
  9
$LTSCALE
 40
1.0
  9
$OSMODE
 70
     0
  9
$ATTMODE
 70
     1
  9
$TEXTSIZE
 40
3.5
  9
$TRACEWID
 40
0.1
  9
$TEXTSTYLE
  7
STANDARD
  9
$CLAYER
  8
ITEM_50
  9
$CELTYPE
  6
BYLAYER
  9
$CECOLOR
 62
   256
  9
$DIMSCALE
 40
1.0
  9
$DIMASZ
 40
2.0
  9
$DIMEXO
 40
1.0
  9
$DIMDLI
 40
8.0
  9
$DIMRND
 40
0.0
  9
$DIMDLE
 40
0.0
  9
$DIMEXE
 40
2.0
  9
$DIMTP
 40
0.1
  9
$DIMTM
 40
0.1
  9
$DIMTXT
 40
3.5
  9
$DIMCEN
 40
2.0
  9
$DIMTSZ
 40
0.0
  9
$DIMTOL
 70
     0
  9
$DIMLIM
 70
     0
  9
$DIMTIH
 70
     0
  9
$DIMTOH
 70
     0
  9
$DIMSE1
 70
     0
  9
$DIMSE2
 70
     0
  9
$DIMTAD
 70
     1
  9
$DIMZIN
 70
     8
  9
$DIMBLK
  1

  9
$DIMASO
 70
     1
  9
$DIMSHO
 70
     1
  9
$DIMPOST
  1

  9
$DIMAPOST
  1

  9
$DIMALT
 70
     0
  9
$DIMALTD
 70
     2
  9
$DIMALTF
 40
25.39999999999999
  9
$DIMLFAC
 40
1.0
  9
$DIMTOFL
 70
     1
  9
$DIMTVP
 40
0.0
  9
$DIMTIX
 70
     0
  9
$DIMSOXD
 70
     0
  9
$DIMSAH
 70
     0
  9
$DIMBLK1
  1

  9
$DIMBLK2
  1

  9
$DIMSTYLE
  2
*UNNAMED
  9
$DIMCLRD
 70
     0
  9
$DIMCLRE
 70
     0
  9
$DIMCLRT
 70
     0
  9
$DIMTFAC
 40
1.0
  9
$DIMGAP
 40
0.09
  9
$LUNITS
 70
     2
  9
$LUPREC
 70
     3
  9
$SKETCHINC
 40
0.1
  9
$FILLETRAD
 40
20.0
  9
$AUNITS
 70
     0
  9
$AUPREC
 70
     1
  9
$MENU
  1

  9
$ELEVATION
 40
0.0
  9
$PELEVATION
 40
0.0
  9
$THICKNESS
 40
0.0
  9
$LIMCHECK
 70
     0
  9
$BLIPMODE
 70
     0
  9
$CHAMFERA
 40
5.0
  9
$CHAMFERB
 40
5.0
  9
$SKPOLY
 70
     1
  9
$TDCREATE
 40
2448895.491672685
  9
$TDUPDATE
 40
2449393.431750578
  9
$TDINDWG
 40
0.0000597222
  9
$TDUSRTIMER
 40
0.0000597222
  9
$USRTIMER
 70
     1
  9
$ANGBASE
 50
0.0
  9
$ANGDIR
 70
     0
  9
$PDMODE
 70
     3
  9
$PDSIZE
 40
0.0
  9
$PLINEWID
 40
0.0
  9
$COORDS
 70
     2
  9
$SPLFRAME
 70
     0
  9
$SPLINETYPE
 70
     6
  9
$SPLINESEGS
 70
     8
  9
$ATTDIA
 70
     1
  9
$ATTREQ
 70
     1
  9
$HANDLING
 70
     0
  9
$HANDSEED
  5
19E
  9
$SURFTAB1
 70
     6
  9
$SURFTAB2
 70
     6
  9
$SURFTYPE
 70
     6
  9
$SURFU
 70
     6
  9
$SURFV
 70
     6
  9
$UCSNAME
  2

  9
$UCSORG
 10
0.0
 20
0.0
 30
0.0
  9
$UCSXDIR
 10
1.0
 20
0.0
 30
0.0
  9
$UCSYDIR
 10
0.0
 20
1.0
 30
0.0
  9
$PUCSNAME
  2

  9
$PUCSORG
 10
0.0
 20
0.0
 30
0.0
  9
$PUCSXDIR
 10
1.0
 20
0.0
 30
0.0
  9
$PUCSYDIR
 10
0.0
 20
1.0
 30
0.0
  9
$USERI1
 70
     0
  9
$USERI2
 70
     3
  9
$USERI3
 70
    15
  9
$USERI4
 70
     0
  9
$USERI5
 70
     0
  9
$USERR1
 40
1.0
  9
$USERR2
 40
1.0
  9
$USERR3
 40
0.0
  9
$USERR4
 40
1.0
  9
$USERR5
 40
0.0
  9
$WORLDVIEW
 70
     5
  9
$SHADEDGE
 70
     3
  9
$SHADEDIF
 70
    70
  9
$TILEMODE
 70
     1
  9
$MAXACTVP
 70
    16
  9
$PINSBASE
 10
0.0
 20
0.0
 30
0.0
  9
$PLIMCHECK
 70
     0
  9
$PEXTMIN
 10
1.000000000000000E+20
 20
1.000000000000000E+20
 30
1.000000000000000E+20
  9
$PEXTMAX
 10
-1.000000000000000E+20
 20
-1.000000000000000E+20
 30
-1.000000000000000E+20
  9
$PLIMMIN
 10
0.0
 20
0.0
  9
$PLIMMAX
 10
12.0
 20
9.0
  9
$UNITMODE
 70
     0
  9
$VISRETAIN
 70
     0
  9
$PLINEGEN
 70
     0
  9
$PSLTSCALE
 70
     0
  9
$TREEDEPTH
 70
  3020
  9
$DWGCODEPAGE
  3
undefined
  0
ENDSEC
  0
SECTION
  2
TABLES
  0
TABLE
  2
VPORT
 70
     2
  0
VPORT
  2
*ACTIVE
 70
     0
 10
0.0
 20
0.0
 11
1.0
 21
1.0
 12
302.7004141332479
 22
100.7573287458914
 13
0.0
 23
0.0
 14
1.0
 24
1.0
 15
10.0
 25
10.0
 16
0.0
 26
0.0
 36
1.0
 17
0.0
 27
0.0
 37
0.0
 40
74.98217032894517
 41
1.275675675675675
 42
50.0
 43
0.0
 44
0.0
 50
0.0
 51
0.0
 71
     0
 72
   100
 73
     1
 74
     0
 75
     0
 76
     0
 77
     0
 78
     0
  0
ENDTAB
  0
TABLE
  2
LTYPE
 70
     4
  0
LTYPE
  2
CONTINUOUS
 70
    64
  3
Solid line
 72
    65
 73
     0
 40
0.0
  0
LTYPE
  2
GEN
 70
    64
  3
----------------------
 72
    65
 73
     2
 40
10000000000.0
 49
0.0
 49
10000000000.0
  0
LTYPE
  2
ITEM-STRICHPUNKT
 70
    64
  3
__ . __ . __
 72
    65
 73
     4
 40
3.599999999999999
 49
2.399999999999999
 49
-0.6
 49
0.0
 49
-0.6
  0
LTYPE
  2
AUSGEZOGEN
 70
    64
  3
Solid line
 72
    65
 73
     0
 40
0.0
  0
ENDTAB
  0
TABLE
  2
LAYER
 70
     4
  0
LAYER
  2
0
 70
     0
 62
     7
  6
GEN
  0
LAYER
  2
ITEM_50
 70
    64
 62
     7
  6
CONTINUOUS
  0
LAYER
  2
ITEM_STP
 70
    64
 62
     4
  6
ITEM-STRICHPUNKT
  0
LAYER
  2
ITEM_HILFE
 70
    64
 62
     3
  6
AUSGEZOGEN
  0
ENDTAB
  0
TABLE
  2
STYLE
 70
     1
  0
STYLE
  2
STANDARD
 70
     0
 40
0.0
 41
1.0
 50
0.0
 71
     0
 42
3.5
  3
ISO8
  4

  0
ENDTAB
  0
TABLE
  2
VIEW
 70
     0
  0
ENDTAB
  0
TABLE
  2
UCS
 70
     0
  0
ENDTAB
  0
TABLE
  2
APPID
 70
     1
  0
APPID
  2
ACAD
 70
    64
  0
ENDTAB
  0
TABLE
  2
DIMSTYLE
 70
     0
  0
ENDTAB
  0
ENDSEC
  0
SECTION
  2
BLOCKS
  0
ENDSEC
  0
SECTION
  2
ENTITIES
  0
LINE
  8
ITEM_50
 10
256.1140812782288
 20
66.15534200533977
 30
0.0
 11
256.1140812782288
 21
65.15534200533974
 31
0.0
  0
LINE
  8
ITEM_50
 10
336.083340721771
 20
66.15534200533976
 30
0.0
 11
336.083340721771
 21
65.15534200533974
 31
0.0
  0
LINE
  8
ITEM_50
 10
256.1140812782288
 20
66.15534200533976
 30
0.0
 11
336.0833407217711
 21
66.15534200533976
 31
0.0
  0
LINE
  8
ITEM_50
 10
256.1140812782288
 20
65.15534200533976
 30
0.0
 11
336.0833407217711
 21
65.15534200533976
 31
0.0
  0
LINE
  8
ITEM_50
 10
262.6987109999999
 20
66.15534200533976
 30
0.0
 11
262.6987109999999
 21
65.15534200533976
 31
0.0
  0
LINE
  8
ITEM_50
 10
282.0987109999999
 20
66.15534200533976
 30
0.0
 11
282.0987109999999
 21
65.15534200533976
 31
0.0
  0
LINE
  8
ITEM_50
 10
296.0987109999999
 20
66.15534200533977
 30
0.0
 11
296.0987109999999
 21
65.15534200533976
 31
0.0
  0
LINE
  8
ITEM_50
 10
310.0987109999999
 20
66.15534200533976
 30
0.0
 11
310.0987109999999
 21
65.15534200533976
 31
0.0
  0
LINE
  8
ITEM_50
 10
329.4987109999999
 20
66.15534200533976
 30
0.0
 11
329.4987109999999
 21
65.15534200533976
 31
0.0
  0
LINE
  8
ITEM_STP
 10
296.0987109999999
 20
67.88217946634345
 30
0.0
 11
296.0987109999999
 21
63.26624358141885
 31
0.0
  0
ARC
  8
ITEM_50
 10
326.0459119999999
 20
79.36331912171542
 30
0.0
 40
0.5
 50
224.994134
 51
39.35682099999999
  0
LINE
  8
ITEM_50
 10
323.9987109999999
 20
83.3678721217154
 30
0.0
 11
323.9987109999999
 21
84.03062412171541
 31
0.0
  0
ARC
  8
ITEM_50
 10
323.9987109999999
 20
82.25431912171538
 30
0.0
 40
1.0
 50
27.0
 51
83.84936
  0
ARC
  8
ITEM_50
 10
324.1187109999999
 20
84.03062412171541
 30
0.0
 40
0.12
 50
135.0
 51
180.0
  0
ARC
  8
ITEM_50
 10
324.1187109999999
 20
83.3678721217154
 30
0.0
 40
0.12
 50
180.0
 51
263.8493599999999
  0
LINE
  8
ITEM_50
 10
324.033858
 20
84.11547712171537
 30
0.0
 11
327.5129239999999
 21
87.59454312171541
 31
0.0
  0
LINE
  8
ITEM_50
 10
324.889718
 20
82.70830812171541
 30
0.0
 11
326.4325179999999
 21
79.68039312171541
 31
0.0
  0
ARC
  8
ITEM_50
 10
266.1515099999999
 20
79.36331912171542
 30
0.0
 40
0.5
 50
140.643179
 51
315.005866
  0
LINE
  8
ITEM_50
 10
268.1635639999999
 20
84.11547712171537
 30
0.0
 11
264.6844969999999
 21
87.59454312171541
 31
0.0
  0
ARC
  8
ITEM_50
 10
268.0787109999999
 20
83.3678721217154
 30
0.0
 40
0.12
 50
276.15064
 51
0.0
  0
ARC
  8
ITEM_50
 10
268.0787109999999
 20
84.03062412171541
 30
0.0
 40
0.12
 50
0.0
 51
45.0
  0
ARC
  8
ITEM_50
 10
268.198711
 20
82.25431912171538
 30
0.0
 40
1.0
 50
96.15063999999999
 51
153.0
  0
LINE
  8
ITEM_50
 10
268.198711
 20
83.3678721217154
 30
0.0
 11
268.198711
 21
84.03062412171541
 31
0.0
  0
LINE
  8
ITEM_50
 10
267.3077039999999
 20
82.70830812171541
 30
0.0
 11
265.764904
 21
79.68039312171541
 31
0.0
  0
LINE
  8
ITEM_50
 10
296.3987109999999
 20
95.36331912171542
 30
0.0
 11
309.798711
 21
95.36331912171542
 31
0.0
  0
LINE
  8
ITEM_50
 10
282.3987109999999
 20
95.36331912171542
 30
0.0
 11
295.798711
 21
95.36331912171542
 31
0.0
  0
ARC
  8
ITEM_50
 10
282.0987109999999
 20
95.30754112171538
 30
0.0
 40
0.12
 50
236.309932
 51
303.6900679999999
  0
LINE
  8
ITEM_50
 10
282.032147
 20
95.20769512171537
 30
0.0
 11
281.798711
 21
95.36331912171542
 31
0.0
  0
LINE
  8
ITEM_50
 10
282.3987109999999
 20
95.36331912171542
 30
0.0
 11
282.1652749999999
 21
95.20769512171537
 31
0.0
  0
LINE
  8
ITEM_50
 10
295.798711
 20
95.36331912171542
 30
0.0
 11
296.032147
 21
95.20769512171537
 31
0.0
  0
LINE
  8
ITEM_50
 10
296.1652749999999
 20
95.20769512171537
 30
0.0
 11
296.3987109999999
 21
95.36331912171542
 31
0.0
  0
ARC
  8
ITEM_50
 10
296.0987109999999
 20
95.30754112171538
 30
0.0
 40
0.12
 50
236.309932
 51
303.6900679999999
  0
ARC
  8
ITEM_50
 10
296.0987109999999
 20
95.30754112171538
 30
0.0
 40
0.12
 50
236.309932
 51
303.6900679999999
  0
LINE
  8
ITEM_50
 10
296.032147
 20
95.20769512171537
 30
0.0
 11
295.798711
 21
95.36331912171542
 31
0.0
  0
LINE
  8
ITEM_50
 10
296.3987109999999
 20
95.36331912171542
 30
0.0
 11
296.1652749999999
 21
95.20769512171537
 31
0.0
  0
LINE
  8
ITEM_50
 10
281.798711
 20
95.36331912171542
 30
0.0
 11
262.9987109999999
 21
95.36331912171542
 31
0.0
  0
LINE
  8
ITEM_50
 10
296.0987109999999
 20
92.86331912171542
 30
0.0
 11
268.0987109999999
 21
92.86331912171542
 31
0.0
  0
ARC
  8
ITEM_50
 10
258.0987366544057
 20
88.02563989552172
 30
0.0
 40
2.0
 50
180.0004399999999
 51
101.537399
  0
ARC
  8
ITEM_50
 10
260.0987109999999
 20
91.36331912171542
 30
0.0
 40
3.0
 50
84.97616200000001
 51
180.0004399999999
  0
ARC
  8
ITEM_50
 10
260.0987109999999
 20
91.36331912171542
 30
0.0
 40
4.0
 50
84.97600000000001
 51
180.0004399999999
  0
LINE
  8
ITEM_50
 10
257.0987112911972
 20
91.36329606809064
 30
0.0
 11
257.0987182486742
 21
90.4751221862175
 31
0.0
  0
LINE
  8
ITEM_50
 10
256.0987104322474
 20
91.36328512140403
 30
0.0
 11
256.0987365456755
 21
88.02562488768225
 31
0.0
  0
ARC
  8
ITEM_50
 10
257.5987175068451
 20
90.47512575481761
 30
0.0
 40
0.5
 50
180.0004399999999
 51
281.5373989999999
  0
LINE
  8
ITEM_50
 10
266.0987109999999
 20
90.86331912171542
 30
0.0
 11
266.0987109999999
 21
90.71413912171541
 31
0.0
  0
LINE
  8
ITEM_50
 10
267.5045979999999
 20
87.32002612171541
 30
0.0
 11
269.3918989999999
 21
85.43272612171543
 31
0.0
  0
ARC
  8
ITEM_50
 10
270.8987109999999
 20
90.71413912171541
 30
0.0
 40
4.799999999999999
 50
180.0
 51
225.0
  0
LINE
  8
ITEM_50
 10
262.3987109999999
 20
95.36331912171542
 30
0.0
 11
260.0987109999999
 21
95.36331912171542
 31
0.0
  0
ARC
  8
ITEM_50
 10
260.698711
 20
93.86331912171542
 30
0.0
 40
0.5
 50
0.0
 51
90.0
  0
ARC
  8
ITEM_50
 10
265.139447
 20
94.11331912171542
 30
0.0
 40
0.25
 50
316.826546
 51
90.0
  0
ARC
  8
ITEM_50
 10
263.698711
 20
93.86331912171542
 30
0.0
 40
0.5
 50
90.0
 51
180.0
  0
LINE
  8
ITEM_50
 10
263.698711
 20
94.36331912171542
 30
0.0
 11
265.139447
 21
94.36331912171542
 31
0.0
  0
ARC
  8
ITEM_50
 10
262.698711
 20
95.30754112171538
 30
0.0
 40
0.12
 50
236.309932
 51
303.6900679999999
  0
LINE
  8
ITEM_50
 10
262.6321469999999
 20
95.20769512171537
 30
0.0
 11
262.3987109999999
 21
95.36331912171542
 31
0.0
  0
LINE
  8
ITEM_50
 10
262.9987109999999
 20
95.36331912171542
 30
0.0
 11
262.7652749999999
 21
95.20769512171537
 31
0.0
  0
LINE
  8
ITEM_50
 10
260.3614210950229
 20
94.35179421882665
 30
0.0
 11
260.9591249222367
 21
94.29924961858029
 31
0.0
  0
LINE
  8
ITEM_50
 10
261.198711
 20
92.86331912171542
 30
0.0
 11
261.198711
 21
93.86331912171542
 31
0.0
  0
LINE
  8
ITEM_50
 10
263.198711
 20
93.86331912171542
 30
0.0
 11
263.198711
 21
92.86331912171542
 31
0.0
  0
ARC
  8
ITEM_50
 10
268.0987109999999
 20
90.86331912171542
 30
0.0
 40
2.0
 50
90.0
 51
180.0
  0
LINE
  8
ITEM_50
 10
266.5050989999999
 20
79.0098021217154
 30
0.0
 11
269.3920799999999
 21
81.89737312171538
 31
0.0
  0
ARC
  8
ITEM_50
 10
267.6241319999999
 20
83.66495912171538
 30
0.0
 40
2.5
 50
315.005866
 51
45.0
  0
LINE
  8
ITEM_50
 10
263.198711
 20
92.86331912171542
 30
0.0
 11
261.198711
 21
92.86331912171542
 31
0.0
  0
LINE
  8
ITEM_50
 10
328.9987109999999
 20
92.86331912171542
 30
0.0
 11
330.9987109999999
 21
92.86331912171542
 31
0.0
  0
ARC
  8
ITEM_50
 10
324.5732899999999
 20
83.66495912171538
 30
0.0
 40
2.5
 50
135.0
 51
224.994134
  0
LINE
  8
ITEM_50
 10
325.6923229999999
 20
79.0098021217154
 30
0.0
 11
322.8053419999999
 21
81.89737312171538
 31
0.0
  0
LINE
  8
ITEM_50
 10
310.3987109999999
 20
95.36331912171542
 30
0.0
 11
310.1652749999999
 21
95.20769512171537
 31
0.0
  0
LINE
  8
ITEM_50
 10
310.032147
 20
95.20769512171537
 30
0.0
 11
309.798711
 21
95.36331912171542
 31
0.0
  0
ARC
  8
ITEM_50
 10
310.0987109999999
 20
95.30754112171538
 30
0.0
 40
0.12
 50
236.309932
 51
303.6900679999999
  0
ARC
  8
ITEM_50
 10
310.0987109999999
 20
95.30754112171538
 30
0.0
 40
0.12
 50
236.309932
 51
303.6900679999999
  0
LINE
  8
ITEM_50
 10
310.1652749999999
 20
95.20769512171537
 30
0.0
 11
310.3987109999999
 21
95.36331912171542
 31
0.0
  0
LINE
  8
ITEM_50
 10
309.798711
 20
95.36331912171542
 30
0.0
 11
310.032147
 21
95.20769512171537
 31
0.0
  0
ARC
  8
ITEM_50
 10
324.0987109999999
 20
90.86331912171542
 30
0.0
 40
2.0
 50
0.0
 51
90.0
  0
LINE
  8
ITEM_50
 10
328.9987109999999
 20
93.86331912171542
 30
0.0
 11
328.9987109999999
 21
92.86331912171542
 31
0.0
  0
LINE
  8
ITEM_50
 10
330.9987109999999
 20
92.86331912171542
 30
0.0
 11
330.9987109999999
 21
93.86331912171542
 31
0.0
  0
LINE
  8
ITEM_50
 10
331.8359999088188
 20
94.35179413125365
 30
0.0
 11
331.2382970777632
 21
94.29924961858029
 31
0.0
  0
LINE
  8
ITEM_50
 10
329.198711
 20
95.36331912171542
 30
0.0
 11
329.4321469999999
 21
95.20769512171537
 31
0.0
  0
LINE
  8
ITEM_50
 10
329.5652749999999
 20
95.20769512171537
 30
0.0
 11
329.798711
 21
95.36331912171542
 31
0.0
  0
ARC
  8
ITEM_50
 10
329.4987109999999
 20
95.30754112171538
 30
0.0
 40
0.12
 50
236.309932
 51
303.6900679999999
  0
LINE
  8
ITEM_50
 10
328.4987109999999
 20
94.36331912171542
 30
0.0
 11
327.0579749999999
 21
94.36331912171542
 31
0.0
  0
ARC
  8
ITEM_50
 10
328.4987109999999
 20
93.86331912171542
 30
0.0
 40
0.5
 50
0.0
 51
90.0
  0
ARC
  8
ITEM_50
 10
327.0579749999999
 20
94.11331912171542
 30
0.0
 40
0.25
 50
90.0
 51
223.1734539999999
  0
ARC
  8
ITEM_50
 10
331.4987109999999
 20
93.86331912171542
 30
0.0
 40
0.5
 50
90.0
 51
180.0
  0
LINE
  8
ITEM_50
 10
329.798711
 20
95.36331912171542
 30
0.0
 11
332.0987109999999
 21
95.36331912171542
 31
0.0
  0
ARC
  8
ITEM_50
 10
321.298711
 20
90.71413912171541
 30
0.0
 40
4.799999999999999
 50
315.0
 51
0.0
  0
LINE
  8
ITEM_50
 10
324.6928229999999
 20
87.32002612171541
 30
0.0
 11
322.8055229999999
 21
85.43272612171543
 31
0.0
  0
LINE
  8
ITEM_50
 10
326.0987109999999
 20
90.86331912171542
 30
0.0
 11
326.0987109999999
 21
90.71413912171541
 31
0.0
  0
LINE
  8
ITEM_50
 10
296.0987109999999
 20
92.86331912171542
 30
0.0
 11
324.0987109999999
 21
92.86331912171542
 31
0.0
  0
ARC
  8
ITEM_50
 10
334.5987044931548
 20
90.47512575481761
 30
0.0
 40
0.5
 50
258.462601
 51
359.9995599999999
  0
LINE
  8
ITEM_50
 10
336.0987105715943
 20
91.36328503383103
 30
0.0
 11
336.0986854543243
 21
88.02562488768225
 31
0.0
  0
LINE
  8
ITEM_50
 10
335.0987107088026
 20
91.36329606809067
 30
0.0
 11
335.0987037513255
 21
90.4751221862175
 31
0.0
  0
ARC
  8
ITEM_50
 10
332.0987109999999
 20
91.36331912171544
 30
0.0
 40
4.0
 50
359.9995599999999
 51
95.024
  0
ARC
  8
ITEM_50
 10
332.0987109999999
 20
91.36331912171544
 30
0.0
 40
3.0
 50
359.9995599999999
 51
95.02383799999998
  0
ARC
  8
ITEM_50
 10
334.0986853455942
 20
88.02563989552172
 30
0.0
 40
2.0
 50
78.46260099999999
 51
359.9995599999999
  0
LINE
  8
ITEM_50
 10
310.3987109999999
 20
95.36331912171542
 30
0.0
 11
329.198711
 21
95.36331912171542
 31
0.0
  0
LINE
  8
ITEM_STP
 10
296.0987109999999
 20
97.32889269221405
 30
0.0
 11
296.0987109999999
 21
78.86490093121224
 31
0.0
  0
POINT
  8
ITEM_HILFE
 10
256.0987109999999
 20
95.36331912171542
 30
0.0
  0
POINT
  8
ITEM_HILFE
 10
336.0987109999999
 20
95.36331912171542
 30
0.0
  0
POINT
  8
ITEM_HILFE
 10
296.0987109999999
 20
95.36331912171542
 30
0.0
  0
ARC
  8
ITEM_50
 10
266.0987109999999
 20
89.0087571217154
 30
0.0
 40
2.0
 50
180.0
 51
225.0
  0
LINE
  8
ITEM_50
 10
264.0987109999999
 20
89.0087571217154
 30
0.0
 11
264.0987109999999
 21
90.86332512171543
 31
0.0
  0
ARC
  8
ITEM_50
 10
268.6035539999999
 20
90.86332512171543
 30
0.0
 40
4.5
 50
136.826546
 51
180.0
  0
ARC
  8
ITEM_50
 10
323.5938679999999
 20
90.86332512171546
 30
0.0
 40
4.5
 50
0.0000000000000987
 51
43.1734540000001
  0
LINE
  8
ITEM_50
 10
328.0987109999999
 20
89.00875712171546
 30
0.0
 11
328.0987109999999
 21
90.86332512171549
 31
0.0
  0
ARC
  8
ITEM_50
 10
326.0987109999999
 20
89.00875712171543
 30
0.0
 40
2.0
 50
315.0
 51
0.0000000000000987
  0
LINE
  8
ITEM_50
 10
350.5268795322508
 20
95.36331912171542
 30
0.0
 11
349.5268795322508
 21
95.36331912171542
 31
0.0
  0
LINE
  8
ITEM_50
 10
350.5268795322508
 20
86.02563989552172
 30
0.0
 11
350.5268795322508
 21
95.36331912171542
 31
0.0
  0
LINE
  8
ITEM_50
 10
349.5268795322508
 20
86.02563989552172
 30
0.0
 11
350.5268795322508
 21
86.02563989552172
 31
0.0
  0
LINE
  8
ITEM_50
 10
349.5268795322508
 20
95.36331912171542
 30
0.0
 11
349.5268795322508
 21
86.02563989552172
 31
0.0
  0
ENDSEC
  0
EOF
